ISO-10303-21;
HEADER;
/* Generated by software containing ST-Developer
 * from STEP Tools, Inc. (www.steptools.com) 
 */

FILE_DESCRIPTION(
/* description */ (''),
/* implementation_level */ '2;1');

FILE_NAME(
/* name */ 
'C:\\Users\\CAD Station\\Desktop\\DIN Rail\\DIN35\\15mm Deep\\UnPerfor
ated\\CA701-15.stp',
/* time_stamp */ '2016-08-23T10:16:31-04:00',
/* author */ ('CAD Station'),
/* organization */ (''),
/* preprocessor_version */ 'ST-DEVELOPER v16.1',
/* originating_system */ 'Autodesk Inventor 2016',
/* authorisation */ '');

FILE_SCHEMA (('AUTOMOTIVE_DESIGN { 1 0 10303 214 3 1 1 }'));
ENDSEC;

DATA;
#10=MECHANICAL_DESIGN_GEOMETRIC_PRESENTATION_REPRESENTATION('',(#13),#715);
#11=SHAPE_REPRESENTATION_RELATIONSHIP('SRR','None',#724,#12);
#12=ADVANCED_BREP_SHAPE_REPRESENTATION('',(#14),#714);
#13=STYLED_ITEM('',(#733),#14);
#14=MANIFOLD_SOLID_BREP('Solid3',#427);
#15=CIRCLE('',#431,1.8);
#16=CIRCLE('',#432,1.8);
#17=CIRCLE('',#435,0.800000000000001);
#18=CIRCLE('',#436,0.800000000000001);
#19=CIRCLE('',#439,0.800000000000001);
#20=CIRCLE('',#440,0.800000000000001);
#21=CIRCLE('',#443,1.8);
#22=CIRCLE('',#444,1.8);
#23=CIRCLE('',#449,0.8);
#24=CIRCLE('',#450,0.8);
#25=CIRCLE('',#453,1.8);
#26=CIRCLE('',#454,1.8);
#27=CIRCLE('',#457,1.8);
#28=CIRCLE('',#458,1.8);
#29=CIRCLE('',#461,0.8);
#30=CIRCLE('',#462,0.8);
#31=CYLINDRICAL_SURFACE('',#430,1.8);
#32=CYLINDRICAL_SURFACE('',#434,0.800000000000001);
#33=CYLINDRICAL_SURFACE('',#438,0.800000000000001);
#34=CYLINDRICAL_SURFACE('',#442,1.8);
#35=CYLINDRICAL_SURFACE('',#448,0.8);
#36=CYLINDRICAL_SURFACE('',#452,1.8);
#37=CYLINDRICAL_SURFACE('',#456,1.8);
#38=CYLINDRICAL_SURFACE('',#460,0.8);
#39=FACE_OUTER_BOUND('',#61,.T.);
#40=FACE_OUTER_BOUND('',#62,.T.);
#41=FACE_OUTER_BOUND('',#63,.T.);
#42=FACE_OUTER_BOUND('',#64,.T.);
#43=FACE_OUTER_BOUND('',#65,.T.);
#44=FACE_OUTER_BOUND('',#66,.T.);
#45=FACE_OUTER_BOUND('',#67,.T.);
#46=FACE_OUTER_BOUND('',#68,.T.);
#47=FACE_OUTER_BOUND('',#69,.T.);
#48=FACE_OUTER_BOUND('',#70,.T.);
#49=FACE_OUTER_BOUND('',#71,.T.);
#50=FACE_OUTER_BOUND('',#72,.T.);
#51=FACE_OUTER_BOUND('',#73,.T.);
#52=FACE_OUTER_BOUND('',#74,.T.);
#53=FACE_OUTER_BOUND('',#75,.T.);
#54=FACE_OUTER_BOUND('',#76,.T.);
#55=FACE_OUTER_BOUND('',#77,.T.);
#56=FACE_OUTER_BOUND('',#78,.T.);
#57=FACE_OUTER_BOUND('',#79,.T.);
#58=FACE_OUTER_BOUND('',#80,.T.);
#59=FACE_OUTER_BOUND('',#81,.T.);
#60=FACE_OUTER_BOUND('',#82,.T.);
#61=EDGE_LOOP('',(#271,#272,#273,#274));
#62=EDGE_LOOP('',(#275,#276,#277,#278));
#63=EDGE_LOOP('',(#279,#280,#281,#282));
#64=EDGE_LOOP('',(#283,#284,#285,#286));
#65=EDGE_LOOP('',(#287,#288,#289,#290));
#66=EDGE_LOOP('',(#291,#292,#293,#294));
#67=EDGE_LOOP('',(#295,#296,#297,#298));
#68=EDGE_LOOP('',(#299,#300,#301,#302));
#69=EDGE_LOOP('',(#303,#304,#305,#306));
#70=EDGE_LOOP('',(#307,#308,#309,#310));
#71=EDGE_LOOP('',(#311,#312,#313,#314));
#72=EDGE_LOOP('',(#315,#316,#317,#318));
#73=EDGE_LOOP('',(#319,#320,#321,#322));
#74=EDGE_LOOP('',(#323,#324,#325,#326));
#75=EDGE_LOOP('',(#327,#328,#329,#330));
#76=EDGE_LOOP('',(#331,#332,#333,#334));
#77=EDGE_LOOP('',(#335,#336,#337,#338));
#78=EDGE_LOOP('',(#339,#340,#341,#342));
#79=EDGE_LOOP('',(#343,#344,#345,#346));
#80=EDGE_LOOP('',(#347,#348,#349,#350));
#81=EDGE_LOOP('',(#351,#352,#353,#354,#355,#356,#357,#358,#359,#360,#361,
#362,#363,#364,#365,#366,#367,#368,#369,#370));
#82=EDGE_LOOP('',(#371,#372,#373,#374,#375,#376,#377,#378,#379,#380,#381,
#382,#383,#384,#385,#386,#387,#388,#389,#390));
#83=LINE('',#593,#127);
#84=LINE('',#595,#128);
#85=LINE('',#597,#129);
#86=LINE('',#598,#130);
#87=LINE('',#604,#131);
#88=LINE('',#607,#132);
#89=LINE('',#609,#133);
#90=LINE('',#610,#134);
#91=LINE('',#616,#135);
#92=LINE('',#619,#136);
#93=LINE('',#621,#137);
#94=LINE('',#622,#138);
#95=LINE('',#628,#139);
#96=LINE('',#631,#140);
#97=LINE('',#633,#141);
#98=LINE('',#634,#142);
#99=LINE('',#640,#143);
#100=LINE('',#643,#144);
#101=LINE('',#645,#145);
#102=LINE('',#646,#146);
#103=LINE('',#649,#147);
#104=LINE('',#651,#148);
#105=LINE('',#652,#149);
#106=LINE('',#655,#150);
#107=LINE('',#657,#151);
#108=LINE('',#658,#152);
#109=LINE('',#664,#153);
#110=LINE('',#667,#154);
#111=LINE('',#669,#155);
#112=LINE('',#670,#156);
#113=LINE('',#676,#157);
#114=LINE('',#679,#158);
#115=LINE('',#681,#159);
#116=LINE('',#682,#160);
#117=LINE('',#688,#161);
#118=LINE('',#691,#162);
#119=LINE('',#693,#163);
#120=LINE('',#694,#164);
#121=LINE('',#700,#165);
#122=LINE('',#703,#166);
#123=LINE('',#705,#167);
#124=LINE('',#706,#168);
#125=LINE('',#708,#169);
#126=LINE('',#709,#170);
#127=VECTOR('',#471,3.2);
#128=VECTOR('',#472,1000.);
#129=VECTOR('',#473,3.2);
#130=VECTOR('',#474,1000.);
#131=VECTOR('',#481,1000.);
#132=VECTOR('',#484,11.4);
#133=VECTOR('',#485,11.4);
#134=VECTOR('',#486,1000.);
#135=VECTOR('',#493,1000.);
#136=VECTOR('',#496,23.4);
#137=VECTOR('',#497,23.4);
#138=VECTOR('',#498,1000.);
#139=VECTOR('',#505,1000.);
#140=VECTOR('',#508,11.4);
#141=VECTOR('',#509,11.4);
#142=VECTOR('',#510,1000.);
#143=VECTOR('',#517,1000.);
#144=VECTOR('',#520,3.2);
#145=VECTOR('',#521,3.2);
#146=VECTOR('',#522,1000.);
#147=VECTOR('',#525,1.);
#148=VECTOR('',#526,1.);
#149=VECTOR('',#527,1000.);
#150=VECTOR('',#530,3.2);
#151=VECTOR('',#531,3.2);
#152=VECTOR('',#532,1000.);
#153=VECTOR('',#539,1000.);
#154=VECTOR('',#542,11.4);
#155=VECTOR('',#543,11.4);
#156=VECTOR('',#544,1000.);
#157=VECTOR('',#551,1000.);
#158=VECTOR('',#554,23.3999999999651);
#159=VECTOR('',#555,23.3999999999651);
#160=VECTOR('',#556,1000.);
#161=VECTOR('',#563,1000.);
#162=VECTOR('',#566,11.4);
#163=VECTOR('',#567,11.4);
#164=VECTOR('',#568,1000.);
#165=VECTOR('',#575,1000.);
#166=VECTOR('',#578,3.2);
#167=VECTOR('',#579,3.2);
#168=VECTOR('',#580,1000.);
#169=VECTOR('',#583,1.);
#170=VECTOR('',#584,1.);
#171=VERTEX_POINT('',#591);
#172=VERTEX_POINT('',#592);
#173=VERTEX_POINT('',#594);
#174=VERTEX_POINT('',#596);
#175=VERTEX_POINT('',#600);
#176=VERTEX_POINT('',#602);
#177=VERTEX_POINT('',#606);
#178=VERTEX_POINT('',#608);
#179=VERTEX_POINT('',#612);
#180=VERTEX_POINT('',#614);
#181=VERTEX_POINT('',#618);
#182=VERTEX_POINT('',#620);
#183=VERTEX_POINT('',#624);
#184=VERTEX_POINT('',#626);
#185=VERTEX_POINT('',#630);
#186=VERTEX_POINT('',#632);
#187=VERTEX_POINT('',#636);
#188=VERTEX_POINT('',#638);
#189=VERTEX_POINT('',#642);
#190=VERTEX_POINT('',#644);
#191=VERTEX_POINT('',#648);
#192=VERTEX_POINT('',#650);
#193=VERTEX_POINT('',#654);
#194=VERTEX_POINT('',#656);
#195=VERTEX_POINT('',#660);
#196=VERTEX_POINT('',#662);
#197=VERTEX_POINT('',#666);
#198=VERTEX_POINT('',#668);
#199=VERTEX_POINT('',#672);
#200=VERTEX_POINT('',#674);
#201=VERTEX_POINT('',#678);
#202=VERTEX_POINT('',#680);
#203=VERTEX_POINT('',#684);
#204=VERTEX_POINT('',#686);
#205=VERTEX_POINT('',#690);
#206=VERTEX_POINT('',#692);
#207=VERTEX_POINT('',#696);
#208=VERTEX_POINT('',#698);
#209=VERTEX_POINT('',#702);
#210=VERTEX_POINT('',#704);
#211=EDGE_CURVE('',#171,#172,#83,.T.);
#212=EDGE_CURVE('',#172,#173,#84,.T.);
#213=EDGE_CURVE('',#174,#173,#85,.T.);
#214=EDGE_CURVE('',#171,#174,#86,.T.);
#215=EDGE_CURVE('',#175,#171,#15,.T.);
#216=EDGE_CURVE('',#176,#174,#16,.T.);
#217=EDGE_CURVE('',#175,#176,#87,.T.);
#218=EDGE_CURVE('',#177,#175,#88,.T.);
#219=EDGE_CURVE('',#178,#176,#89,.T.);
#220=EDGE_CURVE('',#177,#178,#90,.T.);
#221=EDGE_CURVE('',#179,#177,#17,.T.);
#222=EDGE_CURVE('',#180,#178,#18,.T.);
#223=EDGE_CURVE('',#179,#180,#91,.T.);
#224=EDGE_CURVE('',#181,#179,#92,.T.);
#225=EDGE_CURVE('',#182,#180,#93,.T.);
#226=EDGE_CURVE('',#181,#182,#94,.T.);
#227=EDGE_CURVE('',#183,#181,#19,.T.);
#228=EDGE_CURVE('',#184,#182,#20,.T.);
#229=EDGE_CURVE('',#183,#184,#95,.T.);
#230=EDGE_CURVE('',#185,#183,#96,.T.);
#231=EDGE_CURVE('',#186,#184,#97,.T.);
#232=EDGE_CURVE('',#185,#186,#98,.T.);
#233=EDGE_CURVE('',#187,#185,#21,.T.);
#234=EDGE_CURVE('',#188,#186,#22,.T.);
#235=EDGE_CURVE('',#187,#188,#99,.T.);
#236=EDGE_CURVE('',#189,#187,#100,.T.);
#237=EDGE_CURVE('',#190,#188,#101,.T.);
#238=EDGE_CURVE('',#189,#190,#102,.T.);
#239=EDGE_CURVE('',#191,#189,#103,.T.);
#240=EDGE_CURVE('',#192,#190,#104,.T.);
#241=EDGE_CURVE('',#191,#192,#105,.T.);
#242=EDGE_CURVE('',#193,#191,#106,.T.);
#243=EDGE_CURVE('',#194,#192,#107,.T.);
#244=EDGE_CURVE('',#193,#194,#108,.T.);
#245=EDGE_CURVE('',#195,#193,#23,.T.);
#246=EDGE_CURVE('',#196,#194,#24,.T.);
#247=EDGE_CURVE('',#195,#196,#109,.T.);
#248=EDGE_CURVE('',#197,#195,#110,.T.);
#249=EDGE_CURVE('',#198,#196,#111,.T.);
#250=EDGE_CURVE('',#197,#198,#112,.T.);
#251=EDGE_CURVE('',#199,#197,#25,.T.);
#252=EDGE_CURVE('',#200,#198,#26,.T.);
#253=EDGE_CURVE('',#199,#200,#113,.T.);
#254=EDGE_CURVE('',#201,#199,#114,.T.);
#255=EDGE_CURVE('',#202,#200,#115,.T.);
#256=EDGE_CURVE('',#201,#202,#116,.T.);
#257=EDGE_CURVE('',#203,#201,#27,.T.);
#258=EDGE_CURVE('',#204,#202,#28,.T.);
#259=EDGE_CURVE('',#203,#204,#117,.T.);
#260=EDGE_CURVE('',#205,#203,#118,.T.);
#261=EDGE_CURVE('',#206,#204,#119,.T.);
#262=EDGE_CURVE('',#205,#206,#120,.T.);
#263=EDGE_CURVE('',#207,#205,#29,.T.);
#264=EDGE_CURVE('',#208,#206,#30,.T.);
#265=EDGE_CURVE('',#207,#208,#121,.T.);
#266=EDGE_CURVE('',#209,#207,#122,.T.);
#267=EDGE_CURVE('',#210,#208,#123,.T.);
#268=EDGE_CURVE('',#209,#210,#124,.T.);
#269=EDGE_CURVE('',#172,#209,#125,.T.);
#270=EDGE_CURVE('',#173,#210,#126,.T.);
#271=ORIENTED_EDGE('',*,*,#211,.T.);
#272=ORIENTED_EDGE('',*,*,#212,.T.);
#273=ORIENTED_EDGE('',*,*,#213,.F.);
#274=ORIENTED_EDGE('',*,*,#214,.F.);
#275=ORIENTED_EDGE('',*,*,#215,.T.);
#276=ORIENTED_EDGE('',*,*,#214,.T.);
#277=ORIENTED_EDGE('',*,*,#216,.F.);
#278=ORIENTED_EDGE('',*,*,#217,.F.);
#279=ORIENTED_EDGE('',*,*,#218,.T.);
#280=ORIENTED_EDGE('',*,*,#217,.T.);
#281=ORIENTED_EDGE('',*,*,#219,.F.);
#282=ORIENTED_EDGE('',*,*,#220,.F.);
#283=ORIENTED_EDGE('',*,*,#221,.T.);
#284=ORIENTED_EDGE('',*,*,#220,.T.);
#285=ORIENTED_EDGE('',*,*,#222,.F.);
#286=ORIENTED_EDGE('',*,*,#223,.F.);
#287=ORIENTED_EDGE('',*,*,#224,.T.);
#288=ORIENTED_EDGE('',*,*,#223,.T.);
#289=ORIENTED_EDGE('',*,*,#225,.F.);
#290=ORIENTED_EDGE('',*,*,#226,.F.);
#291=ORIENTED_EDGE('',*,*,#227,.T.);
#292=ORIENTED_EDGE('',*,*,#226,.T.);
#293=ORIENTED_EDGE('',*,*,#228,.F.);
#294=ORIENTED_EDGE('',*,*,#229,.F.);
#295=ORIENTED_EDGE('',*,*,#230,.T.);
#296=ORIENTED_EDGE('',*,*,#229,.T.);
#297=ORIENTED_EDGE('',*,*,#231,.F.);
#298=ORIENTED_EDGE('',*,*,#232,.F.);
#299=ORIENTED_EDGE('',*,*,#233,.T.);
#300=ORIENTED_EDGE('',*,*,#232,.T.);
#301=ORIENTED_EDGE('',*,*,#234,.F.);
#302=ORIENTED_EDGE('',*,*,#235,.F.);
#303=ORIENTED_EDGE('',*,*,#236,.T.);
#304=ORIENTED_EDGE('',*,*,#235,.T.);
#305=ORIENTED_EDGE('',*,*,#237,.F.);
#306=ORIENTED_EDGE('',*,*,#238,.F.);
#307=ORIENTED_EDGE('',*,*,#239,.T.);
#308=ORIENTED_EDGE('',*,*,#238,.T.);
#309=ORIENTED_EDGE('',*,*,#240,.F.);
#310=ORIENTED_EDGE('',*,*,#241,.F.);
#311=ORIENTED_EDGE('',*,*,#242,.T.);
#312=ORIENTED_EDGE('',*,*,#241,.T.);
#313=ORIENTED_EDGE('',*,*,#243,.F.);
#314=ORIENTED_EDGE('',*,*,#244,.F.);
#315=ORIENTED_EDGE('',*,*,#245,.T.);
#316=ORIENTED_EDGE('',*,*,#244,.T.);
#317=ORIENTED_EDGE('',*,*,#246,.F.);
#318=ORIENTED_EDGE('',*,*,#247,.F.);
#319=ORIENTED_EDGE('',*,*,#248,.T.);
#320=ORIENTED_EDGE('',*,*,#247,.T.);
#321=ORIENTED_EDGE('',*,*,#249,.F.);
#322=ORIENTED_EDGE('',*,*,#250,.F.);
#323=ORIENTED_EDGE('',*,*,#251,.T.);
#324=ORIENTED_EDGE('',*,*,#250,.T.);
#325=ORIENTED_EDGE('',*,*,#252,.F.);
#326=ORIENTED_EDGE('',*,*,#253,.F.);
#327=ORIENTED_EDGE('',*,*,#254,.T.);
#328=ORIENTED_EDGE('',*,*,#253,.T.);
#329=ORIENTED_EDGE('',*,*,#255,.F.);
#330=ORIENTED_EDGE('',*,*,#256,.F.);
#331=ORIENTED_EDGE('',*,*,#257,.T.);
#332=ORIENTED_EDGE('',*,*,#256,.T.);
#333=ORIENTED_EDGE('',*,*,#258,.F.);
#334=ORIENTED_EDGE('',*,*,#259,.F.);
#335=ORIENTED_EDGE('',*,*,#260,.T.);
#336=ORIENTED_EDGE('',*,*,#259,.T.);
#337=ORIENTED_EDGE('',*,*,#261,.F.);
#338=ORIENTED_EDGE('',*,*,#262,.F.);
#339=ORIENTED_EDGE('',*,*,#263,.T.);
#340=ORIENTED_EDGE('',*,*,#262,.T.);
#341=ORIENTED_EDGE('',*,*,#264,.F.);
#342=ORIENTED_EDGE('',*,*,#265,.F.);
#343=ORIENTED_EDGE('',*,*,#266,.T.);
#344=ORIENTED_EDGE('',*,*,#265,.T.);
#345=ORIENTED_EDGE('',*,*,#267,.F.);
#346=ORIENTED_EDGE('',*,*,#268,.F.);
#347=ORIENTED_EDGE('',*,*,#269,.T.);
#348=ORIENTED_EDGE('',*,*,#268,.T.);
#349=ORIENTED_EDGE('',*,*,#270,.F.);
#350=ORIENTED_EDGE('',*,*,#212,.F.);
#351=ORIENTED_EDGE('',*,*,#270,.T.);
#352=ORIENTED_EDGE('',*,*,#267,.T.);
#353=ORIENTED_EDGE('',*,*,#264,.T.);
#354=ORIENTED_EDGE('',*,*,#261,.T.);
#355=ORIENTED_EDGE('',*,*,#258,.T.);
#356=ORIENTED_EDGE('',*,*,#255,.T.);
#357=ORIENTED_EDGE('',*,*,#252,.T.);
#358=ORIENTED_EDGE('',*,*,#249,.T.);
#359=ORIENTED_EDGE('',*,*,#246,.T.);
#360=ORIENTED_EDGE('',*,*,#243,.T.);
#361=ORIENTED_EDGE('',*,*,#240,.T.);
#362=ORIENTED_EDGE('',*,*,#237,.T.);
#363=ORIENTED_EDGE('',*,*,#234,.T.);
#364=ORIENTED_EDGE('',*,*,#231,.T.);
#365=ORIENTED_EDGE('',*,*,#228,.T.);
#366=ORIENTED_EDGE('',*,*,#225,.T.);
#367=ORIENTED_EDGE('',*,*,#222,.T.);
#368=ORIENTED_EDGE('',*,*,#219,.T.);
#369=ORIENTED_EDGE('',*,*,#216,.T.);
#370=ORIENTED_EDGE('',*,*,#213,.T.);
#371=ORIENTED_EDGE('',*,*,#269,.F.);
#372=ORIENTED_EDGE('',*,*,#211,.F.);
#373=ORIENTED_EDGE('',*,*,#215,.F.);
#374=ORIENTED_EDGE('',*,*,#218,.F.);
#375=ORIENTED_EDGE('',*,*,#221,.F.);
#376=ORIENTED_EDGE('',*,*,#224,.F.);
#377=ORIENTED_EDGE('',*,*,#227,.F.);
#378=ORIENTED_EDGE('',*,*,#230,.F.);
#379=ORIENTED_EDGE('',*,*,#233,.F.);
#380=ORIENTED_EDGE('',*,*,#236,.F.);
#381=ORIENTED_EDGE('',*,*,#239,.F.);
#382=ORIENTED_EDGE('',*,*,#242,.F.);
#383=ORIENTED_EDGE('',*,*,#245,.F.);
#384=ORIENTED_EDGE('',*,*,#248,.F.);
#385=ORIENTED_EDGE('',*,*,#251,.F.);
#386=ORIENTED_EDGE('',*,*,#254,.F.);
#387=ORIENTED_EDGE('',*,*,#257,.F.);
#388=ORIENTED_EDGE('',*,*,#260,.F.);
#389=ORIENTED_EDGE('',*,*,#263,.F.);
#390=ORIENTED_EDGE('',*,*,#266,.F.);
#391=PLANE('',#429);
#392=PLANE('',#433);
#393=PLANE('',#437);
#394=PLANE('',#441);
#395=PLANE('',#445);
#396=PLANE('',#446);
#397=PLANE('',#447);
#398=PLANE('',#451);
#399=PLANE('',#455);
#400=PLANE('',#459);
#401=PLANE('',#463);
#402=PLANE('',#464);
#403=PLANE('',#465);
#404=PLANE('',#466);
#405=ADVANCED_FACE('',(#39),#391,.T.);
#406=ADVANCED_FACE('',(#40),#31,.T.);
#407=ADVANCED_FACE('',(#41),#392,.T.);
#408=ADVANCED_FACE('',(#42),#32,.F.);
#409=ADVANCED_FACE('',(#43),#393,.T.);
#410=ADVANCED_FACE('',(#44),#33,.F.);
#411=ADVANCED_FACE('',(#45),#394,.T.);
#412=ADVANCED_FACE('',(#46),#34,.T.);
#413=ADVANCED_FACE('',(#47),#395,.T.);
#414=ADVANCED_FACE('',(#48),#396,.T.);
#415=ADVANCED_FACE('',(#49),#397,.T.);
#416=ADVANCED_FACE('',(#50),#35,.F.);
#417=ADVANCED_FACE('',(#51),#398,.T.);
#418=ADVANCED_FACE('',(#52),#36,.T.);
#419=ADVANCED_FACE('',(#53),#399,.T.);
#420=ADVANCED_FACE('',(#54),#37,.T.);
#421=ADVANCED_FACE('',(#55),#400,.T.);
#422=ADVANCED_FACE('',(#56),#38,.F.);
#423=ADVANCED_FACE('',(#57),#401,.T.);
#424=ADVANCED_FACE('',(#58),#402,.T.);
#425=ADVANCED_FACE('',(#59),#403,.T.);
#426=ADVANCED_FACE('',(#60),#404,.F.);
#427=CLOSED_SHELL('',(#405,#406,#407,#408,#409,#410,#411,#412,#413,#414,
#415,#416,#417,#418,#419,#420,#421,#422,#423,#424,#425,#426));
#428=AXIS2_PLACEMENT_3D('placement',#589,#467,#468);
#429=AXIS2_PLACEMENT_3D('',#590,#469,#470);
#430=AXIS2_PLACEMENT_3D('',#599,#475,#476);
#431=AXIS2_PLACEMENT_3D('',#601,#477,#478);
#432=AXIS2_PLACEMENT_3D('',#603,#479,#480);
#433=AXIS2_PLACEMENT_3D('',#605,#482,#483);
#434=AXIS2_PLACEMENT_3D('',#611,#487,#488);
#435=AXIS2_PLACEMENT_3D('',#613,#489,#490);
#436=AXIS2_PLACEMENT_3D('',#615,#491,#492);
#437=AXIS2_PLACEMENT_3D('',#617,#494,#495);
#438=AXIS2_PLACEMENT_3D('',#623,#499,#500);
#439=AXIS2_PLACEMENT_3D('',#625,#501,#502);
#440=AXIS2_PLACEMENT_3D('',#627,#503,#504);
#441=AXIS2_PLACEMENT_3D('',#629,#506,#507);
#442=AXIS2_PLACEMENT_3D('',#635,#511,#512);
#443=AXIS2_PLACEMENT_3D('',#637,#513,#514);
#444=AXIS2_PLACEMENT_3D('',#639,#515,#516);
#445=AXIS2_PLACEMENT_3D('',#641,#518,#519);
#446=AXIS2_PLACEMENT_3D('',#647,#523,#524);
#447=AXIS2_PLACEMENT_3D('',#653,#528,#529);
#448=AXIS2_PLACEMENT_3D('',#659,#533,#534);
#449=AXIS2_PLACEMENT_3D('',#661,#535,#536);
#450=AXIS2_PLACEMENT_3D('',#663,#537,#538);
#451=AXIS2_PLACEMENT_3D('',#665,#540,#541);
#452=AXIS2_PLACEMENT_3D('',#671,#545,#546);
#453=AXIS2_PLACEMENT_3D('',#673,#547,#548);
#454=AXIS2_PLACEMENT_3D('',#675,#549,#550);
#455=AXIS2_PLACEMENT_3D('',#677,#552,#553);
#456=AXIS2_PLACEMENT_3D('',#683,#557,#558);
#457=AXIS2_PLACEMENT_3D('',#685,#559,#560);
#458=AXIS2_PLACEMENT_3D('',#687,#561,#562);
#459=AXIS2_PLACEMENT_3D('',#689,#564,#565);
#460=AXIS2_PLACEMENT_3D('',#695,#569,#570);
#461=AXIS2_PLACEMENT_3D('',#697,#571,#572);
#462=AXIS2_PLACEMENT_3D('',#699,#573,#574);
#463=AXIS2_PLACEMENT_3D('',#701,#576,#577);
#464=AXIS2_PLACEMENT_3D('',#707,#581,#582);
#465=AXIS2_PLACEMENT_3D('',#710,#585,#586);
#466=AXIS2_PLACEMENT_3D('',#711,#587,#588);
#467=DIRECTION('axis',(0.,0.,1.));
#468=DIRECTION('refdir',(1.,0.,0.));
#469=DIRECTION('center_axis',(-1.,0.,0.));
#470=DIRECTION('ref_axis',(0.,0.,1.));
#471=DIRECTION('',(0.,0.,1.));
#472=DIRECTION('',(0.,1.,0.));
#473=DIRECTION('',(0.,0.,1.));
#474=DIRECTION('',(0.,1.,0.));
#475=DIRECTION('center_axis',(0.,1.,0.));
#476=DIRECTION('ref_axis',(1.2335811384724E-15,0.,-1.));
#477=DIRECTION('center_axis',(0.,1.,0.));
#478=DIRECTION('ref_axis',(1.2335811384724E-15,0.,-1.));
#479=DIRECTION('center_axis',(0.,1.,0.));
#480=DIRECTION('ref_axis',(1.2335811384724E-15,0.,-1.));
#481=DIRECTION('',(0.,1.,0.));
#482=DIRECTION('center_axis',(0.,0.,-1.));
#483=DIRECTION('ref_axis',(-1.,0.,0.));
#484=DIRECTION('',(-1.,0.,0.));
#485=DIRECTION('',(-1.,0.,0.));
#486=DIRECTION('',(0.,1.,0.));
#487=DIRECTION('center_axis',(0.,1.,0.));
#488=DIRECTION('ref_axis',(-2.08166817117217E-15,0.,-1.));
#489=DIRECTION('center_axis',(0.,-1.,0.));
#490=DIRECTION('ref_axis',(-2.08166817117217E-15,0.,-1.));
#491=DIRECTION('center_axis',(0.,-1.,0.));
#492=DIRECTION('ref_axis',(-2.08166817117217E-15,0.,-1.));
#493=DIRECTION('',(0.,1.,0.));
#494=DIRECTION('center_axis',(-1.,0.,-2.37227142013922E-17));
#495=DIRECTION('ref_axis',(-2.22044604925031E-17,0.,1.));
#496=DIRECTION('',(-2.37227142013922E-17,0.,1.));
#497=DIRECTION('',(-2.37227142013922E-17,0.,1.));
#498=DIRECTION('',(0.,1.,0.));
#499=DIRECTION('center_axis',(0.,1.,0.));
#500=DIRECTION('ref_axis',(-1.,0.,0.));
#501=DIRECTION('center_axis',(0.,-1.,0.));
#502=DIRECTION('ref_axis',(-1.,0.,0.));
#503=DIRECTION('center_axis',(0.,-1.,0.));
#504=DIRECTION('ref_axis',(-1.,0.,0.));
#505=DIRECTION('',(0.,1.,0.));
#506=DIRECTION('center_axis',(0.,0.,1.));
#507=DIRECTION('ref_axis',(1.,0.,0.));
#508=DIRECTION('',(1.,0.,0.));
#509=DIRECTION('',(1.,0.,0.));
#510=DIRECTION('',(0.,1.,0.));
#511=DIRECTION('center_axis',(0.,1.,0.));
#512=DIRECTION('ref_axis',(-1.,0.,-2.46716227694479E-15));
#513=DIRECTION('center_axis',(0.,1.,0.));
#514=DIRECTION('ref_axis',(-1.,0.,-2.46716227694479E-15));
#515=DIRECTION('center_axis',(0.,1.,0.));
#516=DIRECTION('ref_axis',(-1.,0.,-2.46716227694479E-15));
#517=DIRECTION('',(0.,1.,0.));
#518=DIRECTION('center_axis',(-1.,0.,0.));
#519=DIRECTION('ref_axis',(0.,0.,1.));
#520=DIRECTION('',(0.,0.,1.));
#521=DIRECTION('',(0.,0.,1.));
#522=DIRECTION('',(0.,1.,0.));
#523=DIRECTION('center_axis',(0.,0.,-1.));
#524=DIRECTION('ref_axis',(-1.,0.,0.));
#525=DIRECTION('',(-1.,0.,0.));
#526=DIRECTION('',(-1.,0.,0.));
#527=DIRECTION('',(0.,1.,0.));
#528=DIRECTION('center_axis',(1.,0.,0.));
#529=DIRECTION('ref_axis',(0.,0.,-1.));
#530=DIRECTION('',(0.,0.,-1.));
#531=DIRECTION('',(0.,0.,-1.));
#532=DIRECTION('',(0.,1.,0.));
#533=DIRECTION('center_axis',(0.,1.,0.));
#534=DIRECTION('ref_axis',(1.,0.,2.7755575615629E-15));
#535=DIRECTION('center_axis',(0.,-1.,0.));
#536=DIRECTION('ref_axis',(1.,0.,2.7755575615629E-15));
#537=DIRECTION('center_axis',(0.,-1.,0.));
#538=DIRECTION('ref_axis',(1.,0.,2.7755575615629E-15));
#539=DIRECTION('',(0.,1.,0.));
#540=DIRECTION('center_axis',(0.,0.,-1.));
#541=DIRECTION('ref_axis',(-1.,0.,0.));
#542=DIRECTION('',(-1.,0.,0.));
#543=DIRECTION('',(-1.,0.,0.));
#544=DIRECTION('',(0.,1.,0.));
#545=DIRECTION('center_axis',(0.,1.,0.));
#546=DIRECTION('ref_axis',(1.,0.,9.70088207294692E-12));
#547=DIRECTION('center_axis',(0.,1.,0.));
#548=DIRECTION('ref_axis',(1.,0.,9.70088207294692E-12));
#549=DIRECTION('center_axis',(0.,1.,0.));
#550=DIRECTION('ref_axis',(1.,0.,9.70088207294692E-12));
#551=DIRECTION('',(0.,1.,0.));
#552=DIRECTION('center_axis',(1.,0.,2.37227142013922E-17));
#553=DIRECTION('ref_axis',(2.37227142013922E-17,0.,-1.));
#554=DIRECTION('',(2.37227142013922E-17,0.,-1.));
#555=DIRECTION('',(2.37227142013922E-17,0.,-1.));
#556=DIRECTION('',(0.,1.,0.));
#557=DIRECTION('center_axis',(0.,1.,0.));
#558=DIRECTION('ref_axis',(2.15876699232669E-15,0.,1.));
#559=DIRECTION('center_axis',(0.,1.,0.));
#560=DIRECTION('ref_axis',(2.15876699232669E-15,0.,1.));
#561=DIRECTION('center_axis',(0.,1.,0.));
#562=DIRECTION('ref_axis',(2.15876699232669E-15,0.,1.));
#563=DIRECTION('',(0.,1.,0.));
#564=DIRECTION('center_axis',(-3.89551938464967E-16,0.,1.));
#565=DIRECTION('ref_axis',(1.,0.,3.5527136788005E-16));
#566=DIRECTION('',(1.,0.,3.89551938464967E-16));
#567=DIRECTION('',(1.,0.,3.89551938464967E-16));
#568=DIRECTION('',(0.,1.,0.));
#569=DIRECTION('center_axis',(0.,1.,0.));
#570=DIRECTION('ref_axis',(-2.77555756156289E-15,0.,1.));
#571=DIRECTION('center_axis',(0.,-1.,0.));
#572=DIRECTION('ref_axis',(-2.77555756156289E-15,0.,1.));
#573=DIRECTION('center_axis',(0.,-1.,0.));
#574=DIRECTION('ref_axis',(-2.77555756156289E-15,0.,1.));
#575=DIRECTION('',(0.,1.,0.));
#576=DIRECTION('center_axis',(1.,0.,0.));
#577=DIRECTION('ref_axis',(0.,0.,-1.));
#578=DIRECTION('',(0.,0.,-1.));
#579=DIRECTION('',(0.,0.,-1.));
#580=DIRECTION('',(0.,1.,0.));
#581=DIRECTION('center_axis',(0.,0.,1.));
#582=DIRECTION('ref_axis',(1.,0.,0.));
#583=DIRECTION('',(1.,0.,0.));
#584=DIRECTION('',(1.,0.,0.));
#585=DIRECTION('center_axis',(0.,1.,0.));
#586=DIRECTION('ref_axis',(0.,0.,1.));
#587=DIRECTION('center_axis',(0.,1.,0.));
#588=DIRECTION('ref_axis',(0.,0.,1.));
#589=CARTESIAN_POINT('',(0.,0.,0.));
#590=CARTESIAN_POINT('Origin',(-15.,0.,14.3));
#591=CARTESIAN_POINT('',(-15.,0.,14.3));
#592=CARTESIAN_POINT('',(-15.,0.,17.5));
#593=CARTESIAN_POINT('',(-15.,0.,14.3));
#594=CARTESIAN_POINT('',(-15.,1000.,17.5));
#595=CARTESIAN_POINT('',(-15.,0.,17.5));
#596=CARTESIAN_POINT('',(-15.,1000.,14.3));
#597=CARTESIAN_POINT('',(-15.,1000.,14.3));
#598=CARTESIAN_POINT('',(-15.,0.,14.3));
#599=CARTESIAN_POINT('Origin',(-13.2,0.,14.3));
#600=CARTESIAN_POINT('',(-13.2,0.,12.5));
#601=CARTESIAN_POINT('Origin',(-13.2,0.,14.3));
#602=CARTESIAN_POINT('',(-13.2,1000.,12.5));
#603=CARTESIAN_POINT('Origin',(-13.2,1000.,14.3));
#604=CARTESIAN_POINT('',(-13.2,0.,12.5));
#605=CARTESIAN_POINT('Origin',(-1.8,0.,12.5));
#606=CARTESIAN_POINT('',(-1.8,0.,12.5));
#607=CARTESIAN_POINT('',(-1.8,0.,12.5));
#608=CARTESIAN_POINT('',(-1.8,1000.,12.5));
#609=CARTESIAN_POINT('',(-1.8,1000.,12.5));
#610=CARTESIAN_POINT('',(-1.8,0.,12.5));
#611=CARTESIAN_POINT('Origin',(-1.8,0.,11.7));
#612=CARTESIAN_POINT('',(-1.,0.,11.7));
#613=CARTESIAN_POINT('Origin',(-1.8,0.,11.7));
#614=CARTESIAN_POINT('',(-1.,1000.,11.7));
#615=CARTESIAN_POINT('Origin',(-1.8,1000.,11.7));
#616=CARTESIAN_POINT('',(-1.,0.,11.7));
#617=CARTESIAN_POINT('Origin',(-1.,0.,-11.7));
#618=CARTESIAN_POINT('',(-1.,0.,-11.7));
#619=CARTESIAN_POINT('',(-1.,0.,-11.7));
#620=CARTESIAN_POINT('',(-0.999999999999999,1000.,-11.7));
#621=CARTESIAN_POINT('',(-1.,1000.,-11.7));
#622=CARTESIAN_POINT('',(-1.,0.,-11.7));
#623=CARTESIAN_POINT('Origin',(-1.8,0.,-11.7));
#624=CARTESIAN_POINT('',(-1.8,0.,-12.5));
#625=CARTESIAN_POINT('Origin',(-1.8,0.,-11.7));
#626=CARTESIAN_POINT('',(-1.8,1000.,-12.5));
#627=CARTESIAN_POINT('Origin',(-1.8,1000.,-11.7));
#628=CARTESIAN_POINT('',(-1.8,0.,-12.5));
#629=CARTESIAN_POINT('Origin',(-13.2,0.,-12.5));
#630=CARTESIAN_POINT('',(-13.2,0.,-12.5));
#631=CARTESIAN_POINT('',(-13.2,0.,-12.5));
#632=CARTESIAN_POINT('',(-13.2,1000.,-12.5));
#633=CARTESIAN_POINT('',(-13.2,1000.,-12.5));
#634=CARTESIAN_POINT('',(-13.2,0.,-12.5));
#635=CARTESIAN_POINT('Origin',(-13.2,0.,-14.3));
#636=CARTESIAN_POINT('',(-15.,0.,-14.3));
#637=CARTESIAN_POINT('Origin',(-13.2,0.,-14.3));
#638=CARTESIAN_POINT('',(-15.,1000.,-14.3));
#639=CARTESIAN_POINT('Origin',(-13.2,1000.,-14.3));
#640=CARTESIAN_POINT('',(-15.,0.,-14.3));
#641=CARTESIAN_POINT('Origin',(-15.,0.,-17.5));
#642=CARTESIAN_POINT('',(-15.,0.,-17.5));
#643=CARTESIAN_POINT('',(-15.,0.,-17.5));
#644=CARTESIAN_POINT('',(-15.,1000.,-17.5));
#645=CARTESIAN_POINT('',(-15.,1000.,-17.5));
#646=CARTESIAN_POINT('',(-15.,0.,-17.5));
#647=CARTESIAN_POINT('Origin',(-14.,0.,-17.5));
#648=CARTESIAN_POINT('',(-14.,0.,-17.5));
#649=CARTESIAN_POINT('',(-14.,0.,-17.5));
#650=CARTESIAN_POINT('',(-14.,1000.,-17.5));
#651=CARTESIAN_POINT('',(-14.,1000.,-17.5));
#652=CARTESIAN_POINT('',(-14.,0.,-17.5));
#653=CARTESIAN_POINT('Origin',(-14.,0.,-14.3));
#654=CARTESIAN_POINT('',(-14.,0.,-14.3));
#655=CARTESIAN_POINT('',(-14.,0.,-14.3));
#656=CARTESIAN_POINT('',(-14.,1000.,-14.3));
#657=CARTESIAN_POINT('',(-14.,1000.,-14.3));
#658=CARTESIAN_POINT('',(-14.,0.,-14.3));
#659=CARTESIAN_POINT('Origin',(-13.2,0.,-14.3));
#660=CARTESIAN_POINT('',(-13.2,0.,-13.5));
#661=CARTESIAN_POINT('Origin',(-13.2,0.,-14.3));
#662=CARTESIAN_POINT('',(-13.2,1000.,-13.5));
#663=CARTESIAN_POINT('Origin',(-13.2,1000.,-14.3));
#664=CARTESIAN_POINT('',(-13.2,0.,-13.5));
#665=CARTESIAN_POINT('Origin',(-1.8,0.,-13.5));
#666=CARTESIAN_POINT('',(-1.8,0.,-13.5));
#667=CARTESIAN_POINT('',(-1.8,0.,-13.5));
#668=CARTESIAN_POINT('',(-1.8,1000.,-13.5));
#669=CARTESIAN_POINT('',(-1.8,1000.,-13.5));
#670=CARTESIAN_POINT('',(-1.8,0.,-13.5));
#671=CARTESIAN_POINT('Origin',(-1.8,0.,-11.7));
#672=CARTESIAN_POINT('',(1.11022302462433E-15,0.,-11.6999999999825));
#673=CARTESIAN_POINT('Origin',(-1.8,0.,-11.7));
#674=CARTESIAN_POINT('',(0.,1000.,-11.6999999999825));
#675=CARTESIAN_POINT('Origin',(-1.8,1000.,-11.7));
#676=CARTESIAN_POINT('',(1.11022302462433E-15,0.,-11.6999999999825));
#677=CARTESIAN_POINT('Origin',(5.55111512312578E-16,0.,11.6999999999825));
#678=CARTESIAN_POINT('',(5.55111512312578E-16,0.,11.6999999999825));
#679=CARTESIAN_POINT('',(5.55111512312578E-16,0.,11.6999999999825));
#680=CARTESIAN_POINT('',(0.,1000.,11.6999999999825));
#681=CARTESIAN_POINT('',(5.55111512312578E-16,1000.,11.6999999999825));
#682=CARTESIAN_POINT('',(5.55111512312578E-16,0.,11.6999999999825));
#683=CARTESIAN_POINT('Origin',(-1.8,0.,11.7));
#684=CARTESIAN_POINT('',(-1.8,0.,13.5));
#685=CARTESIAN_POINT('Origin',(-1.8,0.,11.7));
#686=CARTESIAN_POINT('',(-1.8,1000.,13.5));
#687=CARTESIAN_POINT('Origin',(-1.8,1000.,11.7));
#688=CARTESIAN_POINT('',(-1.8,0.,13.5));
#689=CARTESIAN_POINT('Origin',(-13.2,0.,13.5));
#690=CARTESIAN_POINT('',(-13.2,0.,13.5));
#691=CARTESIAN_POINT('',(-13.2,0.,13.5));
#692=CARTESIAN_POINT('',(-13.2,1000.,13.5));
#693=CARTESIAN_POINT('',(-13.2,1000.,13.5));
#694=CARTESIAN_POINT('',(-13.2,0.,13.5));
#695=CARTESIAN_POINT('Origin',(-13.2,0.,14.3));
#696=CARTESIAN_POINT('',(-14.,0.,14.3));
#697=CARTESIAN_POINT('Origin',(-13.2,0.,14.3));
#698=CARTESIAN_POINT('',(-14.,1000.,14.3));
#699=CARTESIAN_POINT('Origin',(-13.2,1000.,14.3));
#700=CARTESIAN_POINT('',(-14.,0.,14.3));
#701=CARTESIAN_POINT('Origin',(-14.,0.,17.5));
#702=CARTESIAN_POINT('',(-14.,0.,17.5));
#703=CARTESIAN_POINT('',(-14.,0.,17.5));
#704=CARTESIAN_POINT('',(-14.,1000.,17.5));
#705=CARTESIAN_POINT('',(-14.,1000.,17.5));
#706=CARTESIAN_POINT('',(-14.,0.,17.5));
#707=CARTESIAN_POINT('Origin',(-15.,0.,17.5));
#708=CARTESIAN_POINT('',(-15.,0.,17.5));
#709=CARTESIAN_POINT('',(-15.,1000.,17.5));
#710=CARTESIAN_POINT('Origin',(-5.6247730998843,1000.,-1.04560718349049E-15));
#711=CARTESIAN_POINT('Origin',(-5.6247730998843,0.,-1.04560718349049E-15));
#712=UNCERTAINTY_MEASURE_WITH_UNIT(LENGTH_MEASURE(0.01),#716,
'DISTANCE_ACCURACY_VALUE',
'Maximum model space distance between geometric entities at asserted c
onnectivities');
#713=UNCERTAINTY_MEASURE_WITH_UNIT(LENGTH_MEASURE(1.E-6),#716,
'DISTANCE_ACCURACY_VALUE',
'Maximum model space distance between geometric entities at asserted c
onnectivities');
#714=(
GEOMETRIC_REPRESENTATION_CONTEXT(3)
GLOBAL_UNCERTAINTY_ASSIGNED_CONTEXT((#712))
GLOBAL_UNIT_ASSIGNED_CONTEXT((#716,#719,#717))
REPRESENTATION_CONTEXT('','3D')
);
#715=(
GEOMETRIC_REPRESENTATION_CONTEXT(3)
GLOBAL_UNCERTAINTY_ASSIGNED_CONTEXT((#713))
GLOBAL_UNIT_ASSIGNED_CONTEXT((#716,#719,#717))
REPRESENTATION_CONTEXT('','3D')
);
#716=(
LENGTH_UNIT()
NAMED_UNIT(*)
SI_UNIT(.MILLI.,.METRE.)
);
#717=(
NAMED_UNIT(*)
SI_UNIT($,.STERADIAN.)
SOLID_ANGLE_UNIT()
);
#718=DIMENSIONAL_EXPONENTS(0.,0.,0.,0.,0.,0.,0.);
#719=(
CONVERSION_BASED_UNIT('degree',#721)
NAMED_UNIT(#718)
PLANE_ANGLE_UNIT()
);
#720=(
NAMED_UNIT(*)
PLANE_ANGLE_UNIT()
SI_UNIT($,.RADIAN.)
);
#721=PLANE_ANGLE_MEASURE_WITH_UNIT(PLANE_ANGLE_MEASURE(0.01745329252),#720);
#722=SHAPE_DEFINITION_REPRESENTATION(#723,#724);
#723=PRODUCT_DEFINITION_SHAPE('',$,#726);
#724=SHAPE_REPRESENTATION('',(#428),#714);
#725=PRODUCT_DEFINITION_CONTEXT('part definition',#730,'design');
#726=PRODUCT_DEFINITION('CA701-15','CA701-15',#727,#725);
#727=PRODUCT_DEFINITION_FORMATION('',$,#732);
#728=PRODUCT_RELATED_PRODUCT_CATEGORY('CA701-15','CA701-15',(#732));
#729=APPLICATION_PROTOCOL_DEFINITION('international standard',
'automotive_design',2009,#730);
#730=APPLICATION_CONTEXT(
'Core Data for Automotive Mechanical Design Process');
#731=PRODUCT_CONTEXT('part definition',#730,'mechanical');
#732=PRODUCT('CA701-15','CA701-15',$,(#731));
#733=PRESENTATION_STYLE_ASSIGNMENT((#734));
#734=SURFACE_STYLE_USAGE(.BOTH.,#735);
#735=SURFACE_SIDE_STYLE('',(#736));
#736=SURFACE_STYLE_FILL_AREA(#737);
#737=FILL_AREA_STYLE('',(#738));
#738=FILL_AREA_STYLE_COLOUR('',#739);
#739=COLOUR_RGB('',0.87843137254902,0.874509803921569,0.858823529411765);
ENDSEC;
END-ISO-10303-21;
